quinta-feira, 11 de junho de 2009

Músicas Fáceis Para Iniciantes

Alguns Riffs* fáceis para iniciantes:


-Esse é um dos riffs mais famosos do mundo, todo guitarrista precisa saber tocar.
É de uma música chamada Smoke On The Water do Deep Purple.
É bom você ouvir bastante a música, assim fica mais fácil de se executar o riff.




*: Para você que não sabe o que é um riff, riff é um pedacinho de uma música, que(geralmente) é repetido várias vezes durante a música.Na maioria das vezes o riff é executado nas cordas mais graves, mas há também riffs mais agudos.
A palavra riff vai acompanhar você pro muito tempo, então é bom se acostumar com ela.


Essa é a tablatura de uma versão simplificada do riff de Smoke On The Water:


E---------------------------------------------------------------------
B---------------------------------------------------------------------
G---------------------------------------------------------------------
D---------------------------------------------------------------------
A---------------------------------------------------------------------
E-0--3--5----------0--3--6-5-------------0--3--5--3--0------






-Esse outro riff é da música Detroit Rock City da banda Kiss.
É um riff muito legal de se tocar.Ele é executado durante o refrão da música.
É bom ouvir a música também, para tocar melhor.


E------------------------------------------------------------------------------------
B------------------------------------------------------------------------------------
G------------------------------------------------------------------------------------
D---------------------------------------------------2-----------------2------------
A-----4--4--2-------2--4-----------4--2--4-------4------------------4--------
E-----------------4-----------------------------------------2--4-------------------




-Esse próximo riff é da música Otherside do Red Hot Chili Peppers.
É um riff muito legal também, depois que você aprender a tocar, não vai querer parar nunca.



E---------------------------------------------------------------------------------
B---------------------------------------------------------------------------------
G---------------------------------------------------------------------------------
D-------------------7-7---9-7-5-----------------------------------------------
A---------7-7-7-------------------7-7-7--5-5-5-----------------------------
E---------------------------------------------------------------------------------


Por enquanto é só.
Agora você já tem 3 riffs para praticar, treine bastante.

7 comentários:

  1. Cara muito bom o post,parabens !:D

    ResponderExcluir
  2. ta muito bom o post, só devia ter mais riffs

    ResponderExcluir
  3. legal ja consegui feze rapidinho
    a musica otherside

    ResponderExcluir
  4. Cara gostei muito do riff da Smoke On The Water mais devia ter mais riffs mesmo

    ResponderExcluir
  5. a smoke on the water está errada os nº estão certos mas o lugar deles não,eles tem que estar nas cordas G e D

    ResponderExcluir
  6. ensine como tocar pois to apredendo mais ainda nao achei um boa explicaçao pra fazer "esses riffs", dedilhados e etc.
    ah, dificil achar um site assim = o seu. bom msm!

    ResponderExcluir